Author Topic: Home  (Read 477 times)

Offline chuckm

  • Newbie
  • *
  • Posts: 35
    • View Profile
Home
« on: May 01, 2012, 01:36:31 pm »
Anyone have the tab and chords to Home?   I searched around and did not find anything.   

Any help will be appreciated

thanks
chuck

Social Buttons


Offline oldflogger

  • Full Member
  • ***
  • Posts: 221
    • View Profile
Re: Home
« Reply #1 on: May 01, 2012, 06:06:27 pm »

                                          HOME
         
         
          INTRO         C - Am - Dm - Gm6 - - C - Am - Dm - Gm6
         
                        C - Am - Dm - Gm6
         
         
          VERSE         C - - B7 - F - G/G7 - F - G7
         
                        C - Am - Dm - Gm6
         
         
          VERSE         C - - B7 - Fm - G/G7 - F - G/G7
         
                        C - F - C/C7
         
         
          BRIDGE        F - - Fm/C - C7
         
                        F - - FM/G/G#/A/A#/G#/G7
         
         
          VERSE         C - - B7 - Fm - G/G7 - F - G7
         
                        C - F - C/Gm6
         
         
          END           C - Am - Dm - Gm6 - - C - Am - Dm - Gm6
         
                        C -

Offline chuckm

  • Newbie
  • *
  • Posts: 35
    • View Profile
Re: Home
« Reply #2 on: May 01, 2012, 07:45:55 pm »
Hey Thanks oldflogger.      How do you play the Gm6 here?

Offline wstagner

  • Little Mister
  • Administrator
  • Hero Member
  • *****
  • Posts: 1262
  • Rarely a day go bi I'm not aggravate aboot sumtin.
  • Location: Illinois near Chicargo over by here.
    • View Profile
    • Classic Pumps
Re: Home
« Reply #3 on: May 01, 2012, 09:51:17 pm »
Those Gm6 should be G7...full barre cord @ 3rd fret.
 ;)

Since the bass is not playing any kind of pattern and since some of the notes are not the root of the chords being played, this makes it sound like the chord(s) might be something more obscure than it is.

I think the V tried to change the song so it dint sound so much like Sleepwalks.
« Last Edit: May 01, 2012, 09:56:23 pm by wstagner »

Offline chuckm

  • Newbie
  • *
  • Posts: 35
    • View Profile
Re: Home
« Reply #4 on: November 01, 2012, 10:55:13 am »
Was Home originally the flipside to Walk Don't Run?

Thanks to oldflogger and wstanger for the chords.    I'm finally sorting this out and learning the song.   I'll post tab when I'm done.

But first some audio entertainment: The original (were there variations of this recording?) and a more recent live version  (anyone know when this was recorded?)   Sounds great


http://www.youtube.com/watch?v=BKKfyhtNWUE

http://www.youtube.com/watch?v=5NVlPGi1Kq4



Offline chuckm

  • Newbie
  • *
  • Posts: 35
    • View Profile
Re: Home
« Reply #5 on: November 05, 2012, 06:37:43 am »
Ok, here's the tab.  Any corrections or updates welcome
chuck

HOME 
The Ventures
Tabbed by chuckm
Work out the timing and vibrato from the recording.

Intro
     C      Am   Dm  G7    C      Am  Dm   G7      C     Am  Dm   G7     C
E)--12--10--8--7-5-3-1-3--12-----0---0------------------0---0----------------|
B)--13--12--10-8-6-5-3-5--13------0---3-1-0-1-0----------0---3-1-0-1-0-------|
G)----------------------------0-2----------2---2-1---0-2----------2---2-1-0--|
D)--------------------------------------------------------------------------|
A)---------------------------------------------------------------------------|
E)---------------------------------------------------------------------------|

Verse 1
        B7     F        G7              F       G7            C Am Dm   G7    C
E)-----------------------------1-----------------------------------0---------------|
B)-------------1---------------0--------1---------------------------3-1-01-0------|
G)----0-4---2102-------0-0-0---0--------2-------0--------------0-2-------2---2-1-0-|
D)2-2----------3---------2-2-1-0--0-1-2-3--------2-2-1-0--0-1-2--------------------|
A)---------------0-1-2---------------------0-1-2-----------------------------------|
E)---------------------------------------------------------------------------------|

Verse 2
        B7     F        G7             F        G7             C  F   C    C7
E)----------------------------------------------------------------111-------------|
B)-------------1-----------------------1-----------------------1--111-1-11-1------|
G)----0-4---2102-------0---------------2-------0------------------222------3------|
D)2-2----------3--------2-2-1-0--0-1-2-3--------2-2-1-0--0-1-2-2--333-2-22-2------|
A)---------------0-1-2--------------------0-1-2----------------3------3-33-3------|
E)--------------------------------------------------------------------------------|

Bridge
   F            Fm   C C7                 F        Fm    GGGGG#AA#A#A#AG#G
E)----------------------0------------------------------------------------1--------|
B)-----------------------3-1-0--10------------------------------------------------|
G)--------------1--1-0---------2--210--------------1-1-3-0------------------------|
D)----0--0-3--3----------------------------0-0-3-3-------------2-2-1-0-----------|
A)-3--3-----------------------------------3---------------------------------------|
E)--------------------------------------------------------------------------------|

Verse 3
   C       B7        F        G7        F         G7         C       F       C  G7
E)-8-------7----------------------------5------------------------------------------|
B)-8-----8-8-10-9-8-10------8-8-8-7-6---6-------3-3-3-2-1--0-1-3-1-0-1-3-1-0-1--8--|
G)-9---9---9--------10--------9-9-8-7-----2-3-4---5-5-4-3--0-0-------2-----0-------|
D)10-----------------7-8-9--------------------------------------------------------|
A)---------------------------------------------------------------------------------|
E)---------------------------------------------------------------------------------|

Outro
   C    Am  Dm   G7         C     Am  Dm   G7         
E)-----0---0---------------------0---0---------------------------------|
B)------0---3-1-0-1-0-------------0---3-1-0-1-0------------------------|
G)-0-2-----------2--2-1------0-2-----------2---2-1---------------------|
D)--------------------------------------------------------------------|
A)---------------------------------------------------------------------|
E)---------------------------------------------------------------------|