Show Posts

This section allows you to view all posts made by this member. Note that you can only see posts made in areas you currently have access to.


Messages - chuckm

Pages: [1] 2 3
1
Chords & Tabs / Re: Steel Guitar Rag
« on: July 09, 2018, 12:20:02 pm »
OK.   I've taken a stab at tabbing this out. It was challenging because you have to be really nimble in some places to play these licks...that Nokie played so effortlessly :-/.

This is my take on it, the tab may not be 100% accurate and you may find better ways to play some of it...if you do, please post updates.

Enjoy
Chuck


Steel Guitar Rag
The Ventures (1963 recording)
Tabbed by chuckm


Listen to the recording for timing, rhythm and embellishments.

Intro
                   
----------15------12----9-----6----7--7--7-7--7------------------------------|
----------14------11----8-----5----5--5--5-5--4------------------------------|
----------15---12-----9-----6------------------------------------------------|
—--14-14---------------------------------------------------------------------|
-----------------------------------------------------------------------------|
-----------------------------------------------------------------------------|

Verse 1 
           E           A           E       B           E     B     E
------------------------------------------------------------------------------|
--------5-7b9-------5-7b8-------5-7b9--8-7-5----------------------------------|
--4-4-6-------4-4-6-------4-4-6--------------7-6-5----------------------------|
—--------------------------------------------------5-4-2----------------------|
---------------------------------------------------------5-4-2----------------|
---------------------------------------------------------------3-2-0----------|

            E                A                       E        B          E      B     E                 
-------------------9---------9-------9-------9------------------------------------------|
---------5-7b9-5-----9r7-5----9r7-5---9r7-5---9r7-5—7b9---8-7-5-------------------------|
---4-4-6--------------------------------------------------------7-6-5-------------------|
—---------------------------------------------------------------------5-4-2-------------|
----------------------------------------------------------------------------5-4-2-------|
----------------------------------------------------------------------------------3-2-0-|


Bridge 1
        A             E         F#           B
------4-5------5h7p5--4------------2---2-----7p6p4--------------------------------------|
--5-7----5---5----------5-----------2---2---------7—7p6p4-------------------------------|
-----------6-------------4-4---2h3---3---3----------------4-----------------------------|
—-----------------------------------------------------------7p6p4-----------------------|
------------------------------------------------------------------7p6p4-----------------|
------------------------------------------------------------------------7---------------|

  A                E            F#       F       E                 
--5---------5h7p5--4--------------0--0----0--0-----0------------------------------------|
----5----5-----------5-------------2--2----1--1----0------------------------------------|
------6----------------4-6-5-4--3--------2-------1--------------------------------------|
—---------------------------------------------------------------------------------------|
----------------------------------------------------------------------------------------|
----------------------------------------------------------------------------------------|

 
Verse 2
   E                                                 
--------12-----12-----------12-----12-------12-10h12p10---9-7h9p7---7-5h7p5---4-2h4p2----|
----------12-----12-----------12---------------------------------------------------------|
--12h13-----13-----13—12h13-----13-------------------------------------------------------|
—----------------------------------------------------------------------------------------|
-----------------------------------------------------------------------------------------|
-----------------------------------------------------------------------------------------|

  B                     E                                           A   
---------7-9-7-9-7-------9-10-12-9-10---9-----------------------------------------------------------|
----7-10---------------12------------12—-12-10-9----------------------------------------------------|
--8----------------------------------------------11-9-----------------------------------9----9-11-12|
—-----------------------------------------------------12-11-9--------------9-11-9-11-12---12--------|
--------------------------------------------------------------12-11-12--12--------------------------|
----------------------------------------------------------------------------------------------------|

         E                 B          E            B           E
-------------------12-12--12--12—12----------------------------------------------------|
-------------12-14---b17-b17-b17-b17—b17r15-12-----------------------------------------|
--11-9-12h13-----------------------------------14—b16r14-12----------------------------|
—--------------------------------------------------------------14----------------------|
---------------------------------------------------------------------------------------|
---------------------------------------------------------------------------------------|

 
 
Verse 3
           E            A         E          B        E          B        E         
----------------------------------9-7-----------------------------------------|
--------5-7b9-------5-7b8-------5—---b8r7-5-b8-b8-7-5—2-1-0-------------------|
--4-4-6-------4-4-6---------4-6-----------------------------2-0-1-0-----------|
—-------------------------------------------------------------------4-2---2---|
------------------------------------------------------------------------4-----|
------------------------------------------------------------------------------|

           E          A                     E     B               E     B       E           
------------------7---9-------9-------9--------------------------------------------|
--------5-7b9--5----5—-b9r7-5--b9r7-5--b9r7-5-b9—-8-7-5---7-5----------------------|
--4-4-6-------------------------------------------------6-----6-5-4-2-4-2-0-1------|
—-------------------------------------------------------------------------------2--|
------------------------------------------------------------------------------2----|
-----------------------------------------------------------------------------------|


Bridge 2
        A             E         F#           B
------4-5------5h7p5--4------------2---2-----7p6p4--------------------------|
--5-7----5---5----------5-----------2---2---------7—7p6p4-------------------|
-----------6-------------4-4---2h3---3---3----------------4-----------------|
—------------------------------------------------------------7p6p4----------|
--------------------------------------------------------------------7p6p4---|
--------------------------------------------------------------------------7-|
 
  A             E             F#  F   E                 
--5-4-3-2-1-0---4-4-4-4-4-4---0---0---0-------------------------------------|
----------------5-4-3-2-1-0---2---1---0-------------------------------------|
------------------------------3---2---1-------------------------------------|
—---------------------------------------------------------------------------|
----------------------------------------------------------------------------|
----------------------------------------------------------------------------|

Verse4
   E               
---15-15-14--15-15-14--15-15-14--15-15-14--14--12-12------------------------|
---17-17-16—-17-17-16—-17-17-14—-17-17-16--16—-14-14------------------------|
----------------------------------------------------------------------------|
—---------------------------------------------------------------------------|
----------------------------------------------------------------------------|
----------------------------------------------------------------------------|
                                           B
---15-15-14--15-15-14--15-15-14--15-15-14--15--14-14------------------------|
---17-17-16—-17-17-16—-17-17-14—-17-17-16--17—-16-16------------------------|
----------------------------------------------------------------------------|
—---------------------------------------------------------------------------|
----------------------------------------------------------------------------|
----------------------------------------------------------------------------|
   E                                       A
---15-15-14--15-15-14--15-15-14--15-15-14--14--12-12------------------------|
---17-17-16—-17-17-16—-17-17-14—-17-17-16--16—-14-14------------------------|
----------------------------------------------------------------------------|
—---------------------------------------------------------------------------|
----------------------------------------------------------------------------|
----------------------------------------------------------------------------|
   E                   B                   E
---15-15-14--15-15-14--15-15-14--15-15-14--14--12-12------------------------|
---17-17-16—-17-17-16—-17-17-14—-17-17-16--16—-14-14------------------------|
----------------------------------------------------------------------------|
—---------------------------------------------------------------------------|
----------------------------------------------------------------------------|
----------------------------------------------------------------------------|

Final verse and fade out
           E              A           E           B                  E         
----------------------------------------7---9-7-----------------------------|
--------5-7b9---------5-7b8-------5—7s9---9-----9-7s5---5---b8r7-5---5------|
--4-4-6-------4-4-4-6---------4-6---------------------6---6--------6--------|
—---------------------------------------------------------------------------|
----------------------------------------------------------------------------|
----------------------------------------------------------------------------|
 ….fade out from here
                   
The end

2
Chords & Tabs / Steel Guitar Rag
« on: May 21, 2018, 12:23:23 pm »
Thought I'd ask...anyone have tab for the Ventures version of Steel Guitar Rag?   If not I'll probably take a stab at it.
Steel Guitar Rag was originally recorded in 1936 by Bob Wills and the Texas Playboys....Featuring pedal steel.   The Ventures covered this in 1963 with no pedal steel (as many groups have done).    I've learned parts of different versions over the years but wanted to get this one down.

I'm pretty sure Nokie plays the lead in the 1963 version.   I'm posting 2 videos below...one of the 1963 recording I am referring to, and another of Nokie playing this 33 years later (where he really lets loose, and makes it look easy).  I really like the way Nokie can approximate the pedal steel sound at times.

1963 recording:
https://www.youtube.com/watch?v=HJW8yciH-Qc


1996 recording
https://www.youtube.com/watch?v=-YksY4GYzPY

3
Chords & Tabs / Re: chords for "NIGHT TRAIN" thanks to Bill Kestell
« on: February 09, 2018, 11:03:24 am »
Night Train
The Ventures (1960 recording)
Tabbed by chuckm

Basically a I-IV-V progression in A.
I have marked the chord changes with A,D, and E.
I play the chords as: A (577655)and A6 (xx7675),
D9 (x54555), E9 (x76777).You may prefer other chord voicings.

Listen to the recording for timing, rhythm and embellishments.

Intro
  A
-------------------------------------------------------------------------------|
-------------------------------------------------------------------------------|
-------------------------------------------------------------------------------|
—------7--5-4---------7—-5-4---------7—-5-4--------7---5-4---------------------|
--------7-----7--------7-----7--------7-----7-------7------7-------------------|
--4-5-------------4-5------------4-5-----------4-5-----------------------------|

  D                              A
-------------------------------------------------------------------------------|
-------------------------------------------------------------------------------|
------7--5-4-----------7--5-4--------------------------------------------------|
—------7-----7----------7-----7------7--5-4---------7--5-4---------------------|
--4-5-------------4-5-----------------7-----7--------7-----4-------------------|
---------------------------------4-5------------4-5----------------------------|

  E              D              A                         E
-------------------------------------------------------------------------------|
-------------------------------------------------------------------------------|
------9--7-6---------7---5-4---------------------------------------------------|
—------9-----9--------7------7-------------------------------------------------|
--6-7------------4-5--------------------4-4-4-5-5-5-6-6-6-7-7-7-7-7-7-7--------|
--------------------------------4-5-5-5----------------------------------------|

Verse 1
  A    D          A                    D                A
       /                        h           /                         h
--9----8--------5-8-7-5----------------8----8---------5-8-7-5------------------|
--10---10---5-7--------8-5-----5-------10---10----5-7--------8-5-----5---------|
--9----9---------------------7-56------9----9----------------------7-56--------|
—--------------------------7-------------------------------------7-------------|
-------------------------------------------------------------------------------|
-------------------------------------------------------------------------------|

  E    D          A             E
       /                        h
--10---8--------5-8-7-5--------------------------------------------------------|
--12---10---5-5--------8-5-----5-----------------------------------------------|
--11---9---------------------7-56----------------------------------------------|
—--------------------------7---------------------------------------------------|
-------------------------------------------------------------------------------|
-------------------------------------------------------------------------------|


Verse 2
A                       D                A
---------------------------------------------5--5--5----------------------------|
---------------------------------------------7--7--7----------------------------|
-----------555--------------555--------------6--6--6----------------------------|
—-----5-777---777-4---4-777----777-4---4-77--7--7--7----------------------------|
--5-7---------------7----------------7------------------------------------------|
--------------------------------------------------------------------------------|

  D                           A               E              D            A     E
-----------------------------------5--5--5------------------------------------5-|
-----55-------------55-------------7--7--7-------77-------------55------------7-|
--77-55-77-------77-55-77----------6--6--6----99-77-99-------77-55-77---------6-|
—-77----77--4----77----77-4---77---7--7--7----99----99--6----77----77-4-4-77--7-|
--------------7------------7------------------------------9------------7--------|
--------------------------------------------------------------------------------|

Bridge 
A                                            D                     A
                 /                                      /
-----------------------0--------0----------------------------0--------0---------|
-----------------5--3----3---2----2------------------3--7-5----3---2----2-------|
--0--------0--2------------2--------2-0------------2-------------2--------2-0---|
—---3-2--2--------------------------------2-3-4--4------------------------------|
--------------------------------------------------------------------------------|
--------------------------------------------------------------------------------|


         E                     A             E
                   /
-------------------------0--------0------------------------------------------|
----------------5--9-7-----3---2----2----------------------------------------|
--------------4--------------2--------2--------------------------------------|
—-2--4-5-6--6---------------------------2------------------------------------|
-----------------------------------------------------------------------------|
-----------------------------------------------------------------------------|


Solo
 A                            D               A                 C
-----------------------------------------------------------------------------|
----------5--5--5---------------5--5--5-------5--555555-666-777-8888888------|
----5-7-8--8--8--8-7-5----5-7-8--8--8--8-7-5--6--666666-777-888-9999999------|
—-7--------------------7-----------------------------------------------------|
-----------------------------------------------------------------------------|
-----------------------------------------------------------------------------|

   D                            A                          E                A      E
   b                                                                  b
-5---5--5-----------------------------------8-5------------------------5------------|
---8--8--8-5--------------------8-7-5-7-5-------8-5--------5------------5-----------|
-------------8-7-5---8-7-5------9-7-6-7-6----------8-7-5--5-7-5-7--5-77--7-5--------|
—------------------7-------7-7---------------------------7--------7---------7-5-7-5-|
-----------------------------------------------------------------------------------7|
------------------------------------------------------------------------------------|


Verse 3
  A                   D                 A
--5-5--8-8--5-5------------8-8--5-------------5--5--5----------------|
--5-5--7-7--5-5--7-7--5-5--7-7--5---7-7-5-5---7—-7--7----------------|
-----------------7-7--5-5---------6—7-7-6-6---6—-6--6----------------|
—---------------------------------------------7--7--7----------------|
---------------------------------------------------------------------|
---------------------------------------------------------------------|

  D                                     A
--5-5--8-8--5-5------------8-8--5-------------5--5--5----------------|
--5-5--7-7--5-5--7-7--5-5--7-7--5---7-7-5-5---7—-7--7----------------|
-----------------7-7--5-5---------6—7-7-6-6---6—-6--6----------------|
—---------------------------------------------7--7--7----------------|
---------------------------------------------------------------------|
---------------------------------------------------------------------|

  E                   D                 A         E
--7-7—10-10-7-7-------5-5--8-8--5--------------5---------------------|
--7-7-9--9--7-7--9-9--5-5--7-7--5---7-7-5-5----7---------------------|
-----------------9-9--------------6-7-7-6-6----6---------------------|
—----------------------------------------------7---------------------|
---------------------------------------------------------------------|
---------------------------------------------------------------------|




Outro
  A
-------------------------------------------------------------------------------|
-------------------------------------------------------------------------------|
-------------------------------------------------------------------------------|
—------7--5-4---------7—-5-4---------7—-5-4--------7---5-4---------------------|
--------7-----7--------7-----7--------7-----7-------7------7-------------------|
--4-5-------------4-5------------4-5-----------4-5-----------------------------|

  D                              A
-------------------------------------------------------------------------------|
-------------------------------------------------------------------------------|
------7--5-4-----------7--5-4--------------------------------------------------|
—------7-----7----------7-----7------7--5-4---------7--5-4---------------------|
--4-5-------------4-5-----------------7-----7--------7-----4-------------------|
---------------------------------4-5------------4-5----------------------------|

  E              D              A                         
------------------------------------------------------------------------------|
--------------------------------------------------5---------------------------|
------9--7-6---------7---5-4------------------7-8-6---------------------------|
—------9-----9--------7------7------7--5-4----7-8-7---------------------------|
--6-7------------4-5-----------------7----7-----------------------------------|
--------------------------------4-5-------------------------------------------|

The end

4
Chords & Tabs / Re: chords for "NIGHT TRAIN" thanks to Bill Kestell
« on: February 09, 2018, 10:59:31 am »
Jeff's comments are right on.   I really like the jazzy feel this tune has as well..
Anyway, I have completed my take at tab for this.  I don't think the 2nd verse is quite right...I cant get the ringing sound of the strings...it may be played in a different position on the neck, but this is close. 
Any updates or corrections are welcome.
Hope you enjoy playing this as much as I do

5
Chords & Tabs / Re: chords for "NIGHT TRAIN" thanks to Bill Kestell
« on: January 17, 2018, 03:04:05 pm »
I was listening to this the other day and thought I knew how to play it....until I picked up my guitar and realized that I did not..  Anyone have tab for this?      If not I'll dig in and figure it out....it's fun anyways.

So there are 2 different recordings.    I'm referring to the version on the 1960 Walk Don't Run Album (A cover of the original 1951 version by Jimmy Forrest).   They also recorded a different version in 1964.    Here is the 1960 version I am referring to.


https://www.youtube.com/watch?v=wnjnXdOG8Vk

6
Chords & Tabs / Re: My Own True Love
« on: September 25, 2017, 11:55:03 am »
That's interesting.    I just never think of Don playing lead.     A nice surprise.   Like the rare occasions when you see them singing.
Thanks Jeff
Chuck

7
Chords & Tabs / Re: chords for "THE SHUCK" thanks to Bill Kestell
« on: September 25, 2017, 11:49:53 am »
Hey Jeff...this is cool. Wish I could be there to hear you  guys do this.  If you happen to record and post it please consider putting the link here.

Anyway...I finally completed tabbing this out. As Jeff notes, the recording is in F#/Gd.   I pushed it through Audacity to move it up to G.   So, here is my take on it. Any corrections or enhancements are welcome.

Not sure of some of the positions in the solo...but in the ballpark. 
Enjoy
Chuck

The Shuck
As recorded by The Ventures
Tabbed by chuckm

The recording is in F#....I moved it up a step to G.
h = hammer on
b = bend up to this note
\ = slide into this note

Intro
 Drums   Am7        D                C    Cm   G
-------------------------------------3-3--3-3--3-----------------
---------1--3--5--6-7-7-7--5--3--1---5-5--4-4--3-----------------
---------2--4--5--6-7-7-7--5--4--2-------------------------------
-----------------------------------------------------0-----------
--------------------------------------------------------3--2--0--
-----------------------------------------------------------------

Verse1
  G                          C              G
---------------------------------------------------------
-------------------------------------3-4-5---------------
----------2-3-4-------2----------2-5---------------2-----
------2-5---------2-5---5----5-5--------------2--5---5---
--5-5-----------5---------------------------5------------
---------------------------------------------------------
           Am7        D                C    Cm   G
---------------------------------------3-3--3-3--3---------------
--3-5-3----1--3--5--6-7-7-7--5--3--1---5-5--4-4--3---------------
--4-4-4----2--4--5--6-7-7-7--5--4--2-----------------------------
-----------------------------------------------------0-----------
--------------------------------------------------------3--2--0--
-----------------------------------------------------------------

Verse 2
  G                          C              G
---------------------------------------------------------
-------------------------------------3-4-5---------------
----------2-3-4-------2----------2-5---------------2-----
------2-5---------2-5---5----5-5--------------2--5---5---
--5-5-----------5---------------------------5------------
---------------------------------------------------------
           Am7        D                C    Cm   G
---------------------------------------3-3--3-3--3---------------
--3-5-3----1--3--5--6-7-7-7--5--3--1---5-5--4-4--3---------------
--4-4-4----2--4--5--6-7-7-7--5--4--2-----------------------------
-----------------------------------------------------------------
--------------------------------------------------------0--2--3--
-----------------------------------------------------3-----------


Bridge   (I believe the bass lines here are played by another guitar)
   C          Cm        G        G7             C        Cm         Am7       D
---3-5-3------3-5-3-----3-5-3-------------------3-5-3----3-5-3-----------------------------
---5----5-----4----4----3----3-5-6--------------5----5---4-----4----1—-3--5-6-7------------
---------------------------------------0----------------------------2—-4--5-6-7------------
-----------------------------------------3-2-0------------------------------------0--------
----------3-4---------5------------------------3------3-4---------------------5-----3-2-0--
------------------------------------------------------------------4-5----------------------

Solo
  G                                                            C
  b           b  b                               b             b b
----3---3-6-8-10-10-8-6----6-3-------3---6-3-------3---------------------3---------------
--8---6-----------------8------6-3-6---------6-3-----3-------3-5-5-5-3---3-5-3---3-5-3---
-------------------------------------------------7-----5-3-------------5---5-3---3-5-3---
-----------------------------------------------------------5-------------------5-------5-
-----------------------------------------------------------------------------------------
-----------------------------------------------------------------------------------------

G
          h     h      h
--3-3----------------------
--3-3--5-3---5-3----5-3----
-------5-34-—5-34---5-34---
-----------------5---------
---------------------------
---------------------------


           Am7        D                C    Cm   G
---------------------------------------3-3--3-3--3---------------
--3-5-3----1--3--5--6-7-7-7--5--3--1---5-5--4-4--3---------------
--4-4-4----2--4--5--6-7-7-7--5--4--2-----------------------------
-----------------------------------------------------------------
--------------------------------------------------------0--2--3--
-----------------------------------------------------3-----------

Bridge


3rd verse
    G                                       C                           G
                       \      \                                  \      \
----------5-3-7--8--9--10---------3-5-3-----------10-8--12-13-14-15---------3-5-3--
---3-3----5---8--10-11-12---2-3-5-3---3-----8-8---10----13-15-16-17---2-3-5-3---3--
---4-4----------------------3-4-------------9-9-----------------------3-4----------
-----------------------------------------------------------------------------------
-----------------------------------------------------------------------------------
-----------------------------------------------------------------------------------

           Am7        D                C    Cm   G
---------------------------------------3-3--3-3--3---
--3-5-3----1--3--5--6-7-7-7--5--3--1---5-5--4-4--3---
--4-4-4----2--4--5--6-7-7-7--5--4--2-----------------
-----------------------------------------------------
-----------------------------------------------------
-----------------------------------------------------


Outro
  C    Cm   G        C    Cm   G
--3-3--3-3--3--------3-3--3-3--7------------------------------------------------
--5-5--4-4--3--------5-5--4-4--8------------------------------------------------
--------------------------------------------------------------------------------
--------------------------------------------------------------------------------
--------------------------------------------------------------------------------
--------------------------------------------------------------------------------


8
Chords & Tabs / Re: chords for "THE SHUCK" thanks to Bill Kestell
« on: August 22, 2017, 01:45:13 pm »
This is related and interesting.  Recording by Don Markham....The Ventures recorded his song.  This is the text that goes with it:

This tune, "The Shuck", reached it's potential on The Ventures album, "The Ventures", Dolton LP #2004. Don Markham and Gary "Skip & Flip", "Monster Mash" Paxton composed the tune.  Don Markham toured with The Ventures early in their career(1960), and without a doubt, Don Markham is the resource from which The Ventures picked this tune.Don Markham went on to become a saxophonist for Merle Haggard's Strangers.  He stayed with Merle and The Strangers for 4 decades.  Don Markham passed away February 24, 2017, at age 85.

https://www.youtube.com/watch?v=9I43lydSuic

9
Chords & Tabs / Re: chords for "THE SHUCK" thanks to Bill Kestell
« on: August 08, 2017, 09:53:54 am »
I don't suppose anyone has tab for this?      I could not find any.      If not, maybe I'll take a stab at it.

Here is the tune...I assume that Nokie is playing the lead.
https://www.youtube.com/watch?v=6n_FVKU49V0

10
Chords & Tabs / Re: My Own True Love
« on: July 28, 2017, 08:22:38 am »
OK...I'm finally getting back to this.    Who played the lead on the recording....was this Nokie?   It did not seem like Bob Bogle style to me.

I tried working this out in a few different positions (around the 4th fret, around the 12th fret, with some open strings)   but have settled on the tab below. This sounded the best to me and for me was the easiest to play.     I welcome any corrections or improvements.

At some point I'll work out the backing guitar parts....but for now this is what I have.

Recording on youtube: https://www.youtube.com/watch?v=E_8vl-hbPZ4

Tab:
My Own True Love
The Ventures
Tabbed by chuckm


Verse 1

--------7----4----2--------------------------7---------------------------------
-----9-----5----2-------------------------9---------7-----5--------------------
---------------------------------------------------6-----4---------------------
--9------------------------------------9---------------------------------------
-------------------------------------------------------------------------------
-------------------------------------------------------------------------------


---------12-------11-----9--------------------7-------2-----2----2--------------
-----12-------10-----10--------------------9-------2-----3-----4----------------
--9-----------------------------------------------------------------------------
----------------------------------------9---------------------------------------
--------------------------------------------------------------------------------
--------------------------------------------------------------------------------



Verse 2 

--------7----4----2--------------------------7---------------------------------
-----9-----5----2-------------------------9---------7-----5--------------------
---------------------------------------------------6-----4---------------------
--9------------------------------------9---------------------------------------
-------------------------------------------------------------------------------
-------------------------------------------------------------------------------


---------12-------11-11-----11-9--------------7---------------------------------
-----12-------10---------10----------------9---------7-----5--------------------
--9-------------------------------------9----------6-----4----------------------
--------------------------------------------------------------------------------
--------------------------------------------------------------------------------
--------------------------------------------------------------------------------


Bridge 1

---------12-------9--8--9---------------11-----7-6-7----------------------------
--------------10----------------------------9-----------------------------------
--9-8-9--------------------------8-7-8------------------------------------------
--------------------------------------------------------------------------------
--------------------------------------------------------------------------------
--------------------------------------------------------------------------------

                                                 /
-----------9-----7—5-7-5-7-5----5-4-5-4-5—-7--4--5--2---------------------------
--------------------------------------------------------2—4—5--4----------------
--6-5-6-------------------------------------------------------------------------
--------------------------------------------------------------------------------
--------------------------------------------------------------------------------
--------------------------------------------------------------------------------


Verse 3…same as verse 2



Bridge 2   basically same as bridge 1 with a few embellishments
                  /  /          /   /                   / /      / /
---------12-------9--8--9-------9---8-9----------11-----7-6-7----7-6-7---------
--------------10--10-9--10------10--9-10-------------9--9-8-9----9-8-9---------
--9-8-9-----------------------------------8-7-8---------------------------------
--------------------------------------------------------------------------------
--------------------------------------------------------------------------------
--------------------------------------------------------------------------------

                                                 /
-----------9-----7—5-7-5-7-5----5-4-5-4-5—-7--4--4--2---------------------------
--------------------------------------------------------2—4—5--4----------------
--6-5-6-------------------------------------------------------------------------
--------------------------------------------------------------------------------
--------------------------------------------------------------------------------
--------------------------------------------------------------------------------


Verse 4   same as verse 2…and end


11
Chords & Tabs / Re: Blue Moon
« on: April 09, 2013, 12:12:52 pm »
Hi Andy

Thanks for the input.   You are a much more adept player than I.   I think I'll have an easier time learning how to put a capo on than I will in learning to play the modulated part... :-)


regards,
Chuck

12
General Discussion / Wrecking Crew
« on: February 04, 2013, 12:13:45 pm »
Hello everyone.....

Was Mel Taylor a part of the wrecking crew?  I thought I read that somewhere but don't remember where.    I've seen that photo of him on drums and Hal Blaine playing tambourine.      If yes...what songs (other than Monster Mash) did he play on.

thanks

chuck

13
Chords & Tabs / Re: My Own True Love
« on: November 05, 2012, 09:00:30 am »
Great...thanks a lot...this should give me something to work with

chuck

14
Chords & Tabs / My Own True Love
« on: November 05, 2012, 07:17:51 am »
Hi,

Anyone have chords or tab to My Own True Love

thanks

chuck

15
Chords & Tabs / Re: Home
« on: November 05, 2012, 06:37:43 am »
Ok, here's the tab.  Any corrections or updates welcome
chuck

HOME 
The Ventures
Tabbed by chuckm
Work out the timing and vibrato from the recording.

Intro
     C      Am   Dm  G7    C      Am  Dm   G7      C     Am  Dm   G7     C
E)--12--10--8--7-5-3-1-3--12-----0---0------------------0---0----------------|
B)--13--12--10-8-6-5-3-5--13------0---3-1-0-1-0----------0---3-1-0-1-0-------|
G)----------------------------0-2----------2---2-1---0-2----------2---2-1-0--|
D)—--------------------------------------------------------------------------|
A)---------------------------------------------------------------------------|
E)---------------------------------------------------------------------------|

Verse 1
        B7     F        G7              F       G7            C Am Dm   G7    C
E)-----------------------------1-----------------------------------0---------------|
B)-------------1---------------0--------1---------------------------3-1-0—1-0------|
G)----0-4---2102-------0-0-0---0--------2-------0--------------0-2-------2---2-1-0-|
D)2-2----------3---------2-2-1-0--0-1-2-3--------2-2-1-0--0-1-2--------------------|
A)---------------0-1-2---------------------0-1-2-----------------------------------|
E)---------------------------------------------------------------------------------|

Verse 2
        B7     F        G7             F        G7             C  F   C    C7
E)----------------------------------------------------------------111-------------|
B)-------------1-----------------------1-----------------------1--111-1-11-1------|
G)----0-4---2102-------0---------------2-------0------------------222------3------|
D)2-2----------3--------2-2-1-0--0-1-2-3--------2-2-1-0--0-1-2-2--333-2-22-2------|
A)---------------0-1-2--------------------0-1-2----------------3------3-33-3------|
E)--------------------------------------------------------------------------------|

Bridge
   F            Fm   C C7                 F        Fm    GGGGG#AA#A#A#AG#G
E)----------------------0------------------------------------------------1--------|
B)-----------------------3-1-0--10------------------------------------------------|
G)--------------1--1-0---------2--210--------------1-1-3-0------------------------|
D)—----0--0-3--3----------------------------0-0-3-3-------------2-2-1-0-----------|
A)-3--3-----------------------------------3---------------------------------------|
E)--------------------------------------------------------------------------------|

Verse 3
   C       B7        F        G7        F         G7         C       F       C  G7
E)-8-------7----------------------------5------------------------------------------|
B)-8-----8-8-10-9-8-10------8-8-8-7-6---6-------3-3-3-2-1--0-1-3-1-0-1-3-1-0-1--8--|
G)-9---9---9--------10--------9-9-8-7-----2-3-4---5-5-4-3--0-0-------2-----0-------|
D)—10-----------------7-8-9--------------------------------------------------------|
A)---------------------------------------------------------------------------------|
E)---------------------------------------------------------------------------------|

Outro
   C    Am  Dm   G7         C     Am  Dm   G7         
E)-----0---0---------------------0---0---------------------------------|
B)------0---3-1-0-1-0-------------0---3-1-0-1-0------------------------|
G)-0-2-----------2--2-1------0-2-----------2---2-1---------------------|
D)—--------------------------------------------------------------------|
A)---------------------------------------------------------------------|
E)---------------------------------------------------------------------|




Pages: [1] 2 3